ISO-10303-21;
HEADER;
FILE_DESCRIPTION (( 'STEP AP203' ),
    '1' );
FILE_NAME ('BK7-LNPBSC-12.7-488.STEP',
    '2021-01-05T02:00:47',
    ( '' ),
    ( '' ),
    'SwSTEP 2.0',
    'SolidWorks 2020',
    '' );
FILE_SCHEMA (( 'CONFIG_CONTROL_DESIGN' ));
ENDSEC;

DATA;
#1 = DIRECTION ( 'NONE',  ( 0.000000000000000000, 0.000000000000000000, -1.000000000000000000 ) ) ;
#2 = APPROVAL_ROLE ( '' ) ;
#3 = CARTESIAN_POINT ( 'NONE',  ( -6.349999999999998757, -6.349999999999997868, 6.349999999999999645 ) ) ;
#4 = DATE_AND_TIME ( #141, #193 ) ;
#5 = CARTESIAN_POINT ( 'NONE',  ( 6.349999999999998757, 6.349999999999998757, -6.349999999999999645 ) ) ;
#6 = AXIS2_PLACEMENT_3D ( 'NONE', #27, #53, #227 ) ;
#7 = PLANE ( 'NONE',  #92 ) ;
#8 = DIRECTION ( 'NONE',  ( -2.220446049250312588E-16, 1.000000000000000000, 0.000000000000000000 ) ) ;
#9 = AXIS2_PLACEMENT_3D ( 'NONE', #185, #23, #279 ) ;
#10 = EDGE_CURVE ( 'NONE', #117, #170, #175, .T. ) ;
#11 = CARTESIAN_POINT ( 'NONE',  ( -6.349999999999998757, -6.349999999999997868, 6.349999999999999645 ) ) ;
#12 = ORIENTED_EDGE ( 'NONE', *, *, #31, .T. ) ;
#13 = APPROVAL_PERSON_ORGANIZATION ( #47, #283, #199 ) ;
#14 = CC_DESIGN_PERSON_AND_ORGANIZATION_ASSIGNMENT ( #246, #17, ( #107 ) ) ;
#15 = VERTEX_POINT ( 'NONE', #18 ) ;
#16 = VERTEX_POINT ( 'NONE', #248 ) ;
#17 = PERSON_AND_ORGANIZATION_ROLE ( 'classification_officer' ) ;
#18 = CARTESIAN_POINT ( 'NONE',  ( 6.349999999999998757, 6.349999999999998757, -6.349999999999999645 ) ) ;
#19 = DATE_AND_TIME ( #99, #289 ) ;
#20 = CC_DESIGN_APPROVAL ( #78, ( #247 ) ) ;
#21 = ORIENTED_EDGE ( 'NONE', *, *, #192, .T. ) ;
#22 = APPROVAL_DATE_TIME ( #202, #283 ) ;
#23 = DIRECTION ( 'NONE',  ( 0.7071067811865475727, -0.7071067811865475727, 0.000000000000000000 ) ) ;
#24 = APPLICATION_PROTOCOL_DEFINITION ( 'international standard', 'config_control_design', 1994, #298 ) ;
#25 = CARTESIAN_POINT ( 'NONE',  ( -6.350000000000002309, 6.350000000000001421, 6.349999999999999645 ) ) ;
#26 = ADVANCED_FACE ( 'NONE', ( #127 ), #226, .F. ) ;
#27 = CARTESIAN_POINT ( 'NONE',  ( 0.000000000000000000, 0.000000000000000000, 6.349999999999999645 ) ) ;
#28 = APPLICATION_CONTEXT ( 'configuration controlled 3d designs of mechanical parts and assemblies' ) ;
#29 = EDGE_CURVE ( 'NONE', #65, #35, #77, .T. ) ;
#30 = LINE ( 'NONE', #211, #320 ) ;
#31 = EDGE_CURVE ( 'NONE', #100, #65, #203, .T. ) ;
#32 = LINE ( 'NONE', #267, #242 ) ;
#33 = APPROVAL_PERSON_ORGANIZATION ( #81, #288, #2 ) ;
#34 = DIRECTION ( 'NONE',  ( 0.000000000000000000, 0.000000000000000000, 1.000000000000000000 ) ) ;
#35 = VERTEX_POINT ( 'NONE', #134 ) ;
#36 = PLANE ( 'NONE',  #172 ) ;
#37 = VECTOR ( 'NONE', #158, 1000.000000000000000 ) ;
#38 = ADVANCED_FACE ( 'NONE', ( #85 ), #133, .F. ) ;
#39 = FACE_OUTER_BOUND ( 'NONE', #162, .T. ) ;
#40 = ORIENTED_EDGE ( 'NONE', *, *, #88, .F. ) ;
#41 = VECTOR ( 'NONE', #264, 1000.000000000000000 ) ;
#42 = LINE ( 'NONE', #146, #55 ) ;
#43 = SECURITY_CLASSIFICATION_LEVEL ( 'unclassified' ) ;
#44 = DIRECTION ( 'NONE',  ( -0.7071067811865475727, -0.7071067811865475727, 0.000000000000000000 ) ) ;
#45 = CALENDAR_DATE ( 2021, 5, 1 ) ;
#46 = EDGE_LOOP ( 'NONE', ( #149, #198, #291, #266 ) ) ;
#47 = PERSON_AND_ORGANIZATION ( #86, #48 ) ;
#48 = ORGANIZATION ( 'UNSPECIFIED', 'UNSPECIFIED', '' ) ;
#49 = ORIENTED_EDGE ( 'NONE', *, *, #84, .T. ) ;
#50 = CALENDAR_DATE ( 2021, 5, 1 ) ;
#51 = LINE ( 'NONE', #251, #118 ) ;
#52 = PERSON_AND_ORGANIZATION ( #86, #48 ) ;
#53 = DIRECTION ( 'NONE',  ( -0.000000000000000000, 0.000000000000000000, 1.000000000000000000 ) ) ;
#54 = DATE_TIME_ROLE ( 'classification_date' ) ;
#55 = VECTOR ( 'NONE', #108, 1000.000000000000000 ) ;
#56 = CARTESIAN_POINT ( 'NONE',  ( -6.350000000000002309, 6.350000000000001421, -6.349999999999999645 ) ) ;
#57 = PLANE ( 'NONE',  #132 ) ;
#58 = CARTESIAN_POINT ( 'NONE',  ( -6.349999999999998757, -6.349999999999997868, 6.349999999999999645 ) ) ;
#59 = APPROVAL_DATE_TIME ( #4, #288 ) ;
#60 = CARTESIAN_POINT ( 'NONE',  ( 0.000000000000000000, 0.000000000000000000, -6.349999999999999645 ) ) ;
#61 = DIRECTION ( 'NONE',  ( -1.000000000000000000, -6.829619984160658046E-17, 0.000000000000000000 ) ) ;
#62 = ADVANCED_FACE ( 'NONE', ( #180 ), #57, .F. ) ;
#63 = ORIENTED_EDGE ( 'NONE', *, *, #166, .T. ) ;
#64 = PRODUCT_DEFINITION_SHAPE ( 'NONE', 'NONE',  #137 ) ;
#65 = VERTEX_POINT ( 'NONE', #277 ) ;
#66 = AXIS2_PLACEMENT_3D ( 'NONE', #60, #257, #240 ) ;
#67 = VERTEX_POINT ( 'NONE', #25 ) ;
#68 = ADVANCED_FACE ( 'NONE', ( #154 ), #302, .T. ) ;
#69 = FACE_OUTER_BOUND ( 'NONE', #125, .T. ) ;
#70 = ORIENTED_EDGE ( 'NONE', *, *, #292, .F. ) ;
#71 = VERTEX_POINT ( 'NONE', #130 ) ;
#72 = COORDINATED_UNIVERSAL_TIME_OFFSET ( 8, 0, .AHEAD. ) ;
#73 = ORIENTED_EDGE ( 'NONE', *, *, #29, .T. ) ;
#74 = APPLICATION_PROTOCOL_DEFINITION ( 'international standard', 'config_control_design', 1994, #28 ) ;
#75 = ORIENTED_EDGE ( 'NONE', *, *, #10, .F. ) ;
#76 =( NAMED_UNIT ( * ) PLANE_ANGLE_UNIT ( ) SI_UNIT ( $, .RADIAN. ) );
#77 = LINE ( 'NONE', #182, #287 ) ;
#78 = APPROVAL ( #124, 'UNSPECIFIED' ) ;
#79 = MECHANICAL_CONTEXT ( 'NONE', #28, 'mechanical' ) ;
#80 = CARTESIAN_POINT ( 'NONE',  ( 6.349999999999999645, -6.350000000000000533, -6.349999999999999645 ) ) ;
#81 = PERSON_AND_ORGANIZATION ( #86, #48 ) ;
#82 = CC_DESIGN_APPROVAL ( #283, ( #137 ) ) ;
#83 = DIRECTION ( 'NONE',  ( -0.7071067811865474617, -0.7071067811865474617, 0.000000000000000000 ) ) ;
#84 = EDGE_CURVE ( 'NONE', #16, #120, #30, .T. ) ;
#85 = FACE_OUTER_BOUND ( 'NONE', #200, .T. ) ;
#86 = PERSON ( 'UNSPECIFIED', 'UNSPECIFIED', 'UNSPECIFIED', ('UNSPECIFIED'), ('UNSPECIFIED'), ('UNSPECIFIED') ) ;
#87 = LINE ( 'NONE', #244, #156 ) ;
#88 = EDGE_CURVE ( 'NONE', #71, #173, #128, .T. ) ;
#89 = LINE ( 'NONE', #305, #229 ) ;
#90 = AXIS2_PLACEMENT_3D ( 'NONE', #310, #34, #8 ) ;
#91 = ORIENTED_EDGE ( 'NONE', *, *, #123, .F. ) ;
#92 = AXIS2_PLACEMENT_3D ( 'NONE', #171, #220, #93 ) ;
#93 = DIRECTION ( 'NONE',  ( -1.000000000000000000, 2.903408047666378392E-16, 0.000000000000000000 ) ) ;
#94 = ORIENTED_EDGE ( 'NONE', *, *, #98, .T. ) ;
#95 = ORIENTED_EDGE ( 'NONE', *, *, #166, .F. ) ;
#96 = CARTESIAN_POINT ( 'NONE',  ( 6.349999999999998757, 6.349999999999998757, 6.349999999999999645 ) ) ;
#97 = ORIENTED_EDGE ( 'NONE', *, *, #160, .T. ) ;
#98 = EDGE_CURVE ( 'NONE', #71, #117, #51, .T. ) ;
#99 = CALENDAR_DATE ( 2021, 5, 1 ) ;
#100 = VERTEX_POINT ( 'NONE', #252 ) ;
#101 = DIRECTION ( 'NONE',  ( 1.000000000000000000, -2.220446049250312588E-16, 0.000000000000000000 ) ) ;
#102 = PERSON_AND_ORGANIZATION ( #86, #48 ) ;
#103 = DIRECTION ( 'NONE',  ( 0.000000000000000000, 0.000000000000000000, -1.000000000000000000 ) ) ;
#104 = APPROVAL_DATE_TIME ( #230, #78 ) ;
#105 = PLANE ( 'NONE',  #294 ) ;
#106 = LINE ( 'NONE', #281, #37 ) ;
#107 = SECURITY_CLASSIFICATION ( '', '', #43 ) ;
#108 = DIRECTION ( 'NONE',  ( 1.000000000000000000, 0.000000000000000000, 0.000000000000000000 ) ) ;
#109 = VERTEX_POINT ( 'NONE', #56 ) ;
#110 = SHAPE_DEFINITION_REPRESENTATION ( #64, #191 ) ;
#111 = CC_DESIGN_DATE_AND_TIME_ASSIGNMENT ( #19, #54, ( #107 ) ) ;
#112 = DIRECTION ( 'NONE',  ( -6.829619984160658046E-17, 1.000000000000000000, -0.000000000000000000 ) ) ;
#113 = EDGE_CURVE ( 'NONE', #67, #109, #254, .T. ) ;
#114 = LOCAL_TIME ( 10, 0, 47.00000000000000000, #296 ) ;
#115 = DIRECTION ( 'NONE',  ( -0.7071067811865474617, -0.7071067811865474617, 0.000000000000000000 ) ) ;
#116 = ADVANCED_FACE ( 'NONE', ( #255 ), #105, .F. ) ;
#117 = VERTEX_POINT ( 'NONE', #301 ) ;
#118 = VECTOR ( 'NONE', #103, 1000.000000000000000 ) ;
#119 = PLANE ( 'NONE',  #210 ) ;
#120 = VERTEX_POINT ( 'NONE', #80 ) ;
#121 = CARTESIAN_POINT ( 'NONE',  ( -6.349999999999998757, -6.349999999999997868, 6.349999999999999645 ) ) ;
#122 = EDGE_LOOP ( 'NONE', ( #40, #95, #299 ) ) ;
#123 = EDGE_CURVE ( 'NONE', #100, #15, #106, .T. ) ;
#124 = APPROVAL_STATUS ( 'not_yet_approved' ) ;
#125 = EDGE_LOOP ( 'NONE', ( #221, #307, #63, #94 ) ) ;
#126 = PERSON_AND_ORGANIZATION_ROLE ( 'creator' ) ;
#127 = FACE_OUTER_BOUND ( 'NONE', #295, .T. ) ;
#128 = LINE ( 'NONE', #275, #197 ) ;
#129 = EDGE_CURVE ( 'NONE', #35, #120, #232, .T. ) ;
#130 = CARTESIAN_POINT ( 'NONE',  ( 6.349999999999996980, 6.349999999999996980, 6.349999999999999645 ) ) ;
#131 = CARTESIAN_POINT ( 'NONE',  ( 0.000000000000000000, 0.000000000000000000, 0.000000000000000000 ) ) ;
#132 = AXIS2_PLACEMENT_3D ( 'NONE', #3, #101, #177 ) ;
#133 = PLANE ( 'NONE',  #9 ) ;
#134 = CARTESIAN_POINT ( 'NONE',  ( -6.349999999999999645, -6.350000000000000533, -6.349999999999999645 ) ) ;
#135 = EDGE_CURVE ( 'NONE', #15, #35, #234, .T. ) ;
#136 = DIRECTION ( 'NONE',  ( 1.000000000000000000, 0.000000000000000000, 0.000000000000000000 ) ) ;
#137 = PRODUCT_DEFINITION ( 'UNKNOWN', '', #247, #265 ) ;
#138 = FACE_OUTER_BOUND ( 'NONE', #195, .T. ) ;
#139 = CARTESIAN_POINT ( 'NONE',  ( 6.349999999999996980, 6.349999999999996980, -6.349999999999999645 ) ) ;
#140 = EDGE_LOOP ( 'NONE', ( #243, #70, #165 ) ) ;
#141 = CALENDAR_DATE ( 2021, 5, 1 ) ;
#142 = CARTESIAN_POINT ( 'NONE',  ( 0.000000000000000000, 0.000000000000000000, -6.349999999999999645 ) ) ;
#143 = VECTOR ( 'NONE', #241, 1000.000000000000000 ) ;
#144 = PLANE ( 'NONE',  #90 ) ;
#145 = ORIENTED_EDGE ( 'NONE', *, *, #84, .F. ) ;
#146 = CARTESIAN_POINT ( 'NONE',  ( -6.349999999999999645, -6.350000000000000533, 6.349999999999999645 ) ) ;
#147 = ADVANCED_FACE ( 'NONE', ( #69 ), #7, .F. ) ;
#148 = DIRECTION ( 'NONE',  ( 1.000000000000000000, 0.000000000000000000, 0.000000000000000000 ) ) ;
#149 = ORIENTED_EDGE ( 'NONE', *, *, #192, .F. ) ;
#150 = CLOSED_SHELL ( 'NONE', ( #26, #62, #147, #259, #215 ) ) ;
#151 = APPROVAL_STATUS ( 'not_yet_approved' ) ;
#152 = DIRECTION ( 'NONE',  ( 0.7071067811865475727, 0.7071067811865475727, 0.000000000000000000 ) ) ;
#153 = CALENDAR_DATE ( 2021, 5, 1 ) ;
#154 = FACE_OUTER_BOUND ( 'NONE', #269, .T. ) ;
#155 = DIRECTION ( 'NONE',  ( -0.7071067811865475727, -0.7071067811865475727, 0.000000000000000000 ) ) ;
#156 = VECTOR ( 'NONE', #187, 1000.000000000000000 ) ;
#157 = ADVANCED_FACE ( 'NONE', ( #39 ), #119, .F. ) ;
#158 = DIRECTION ( 'NONE',  ( -0.000000000000000000, -0.000000000000000000, -1.000000000000000000 ) ) ;
#159 = DIRECTION ( 'NONE',  ( 1.000000000000000000, -2.903408047666378392E-16, 0.000000000000000000 ) ) ;
#160 = EDGE_CURVE ( 'NONE', #173, #170, #285, .T. ) ;
#161 = LINE ( 'NONE', #313, #306 ) ;
#162 = EDGE_LOOP ( 'NONE', ( #168, #91, #297, #49 ) ) ;
#163 = PRODUCT ( 'BK7-LNPBSC-12.7-488', 'BK7-LNPBSC-12.7-488', '', ( #79 ) ) ;
#164 = DIRECTION ( 'NONE',  ( 6.829619984160658046E-17, -1.000000000000000000, 0.000000000000000000 ) ) ;
#165 = ORIENTED_EDGE ( 'NONE', *, *, #129, .F. ) ;
#166 = EDGE_CURVE ( 'NONE', #67, #71, #161, .T. ) ;
#167 = LOCAL_TIME ( 10, 0, 47.00000000000000000, #319 ) ;
#168 = ORIENTED_EDGE ( 'NONE', *, *, #292, .T. ) ;
#169 = FACE_OUTER_BOUND ( 'NONE', #140, .T. ) ;
#170 = VERTEX_POINT ( 'NONE', #216 ) ;
#171 = CARTESIAN_POINT ( 'NONE',  ( 6.349999999999996980, 6.349999999999996980, 6.349999999999999645 ) ) ;
#172 = AXIS2_PLACEMENT_3D ( 'NONE', #142, #236, #213 ) ;
#173 = VERTEX_POINT ( 'NONE', #11 ) ;
#174 = DATE_TIME_ROLE ( 'creation_date' ) ;
#175 = LINE ( 'NONE', #270, #183 ) ;
#176 = ORIENTED_EDGE ( 'NONE', *, *, #212, .F. ) ;
#177 = DIRECTION ( 'NONE',  ( 0.000000000000000000, 0.000000000000000000, 1.000000000000000000 ) ) ;
#178 = CC_DESIGN_PERSON_AND_ORGANIZATION_ASSIGNMENT ( #300, #204, ( #137 ) ) ;
#179 = PERSON_AND_ORGANIZATION_ROLE ( 'design_owner' ) ;
#180 = FACE_OUTER_BOUND ( 'NONE', #46, .T. ) ;
#181 = EDGE_CURVE ( 'NONE', #173, #67, #194, .T. ) ;
#182 = CARTESIAN_POINT ( 'NONE',  ( -6.349999999999999645, -6.350000000000000533, 6.349999999999999645 ) ) ;
#183 = VECTOR ( 'NONE', #44, 999.9999999999998863 ) ;
#184 = DIRECTION ( 'NONE',  ( 0.000000000000000000, -0.000000000000000000, 1.000000000000000000 ) ) ;
#185 = CARTESIAN_POINT ( 'NONE',  ( 6.349999999999998757, 6.349999999999998757, 6.349999999999999645 ) ) ;
#186 = APPROVAL_STATUS ( 'not_yet_approved' ) ;
#187 = DIRECTION ( 'NONE',  ( -6.829619984160658046E-17, 1.000000000000000000, -0.000000000000000000 ) ) ;
#188 = VECTOR ( 'NONE', #136, 1000.000000000000000 ) ;
#189 = UNCERTAINTY_MEASURE_WITH_UNIT (LENGTH_MEASURE( 1.000000000000000082E-05 ), #217, 'distance_accuracy_value', 'NONE');
#190 = LINE ( 'NONE', #139, #143 ) ;
#191 = ADVANCED_BREP_SHAPE_REPRESENTATION ( 'BK7-LNPBSC-12.7-488', ( #256, #263, #239 ), #253 ) ;
#192 = EDGE_CURVE ( 'NONE', #170, #109, #89, .T. ) ;
#193 = LOCAL_TIME ( 10, 0, 47.00000000000000000, #284 ) ;
#194 = LINE ( 'NONE', #121, #214 ) ;
#195 = EDGE_LOOP ( 'NONE', ( #219, #21, #273 ) ) ;
#196 = DIRECTION ( 'NONE',  ( -2.220446049250312588E-16, 1.000000000000000000, 0.000000000000000000 ) ) ;
#197 = VECTOR ( 'NONE', #155, 999.9999999999998863 ) ;
#198 = ORIENTED_EDGE ( 'NONE', *, *, #160, .F. ) ;
#199 = APPROVAL_ROLE ( '' ) ;
#200 = EDGE_LOOP ( 'NONE', ( #314, #237, #316, #311 ) ) ;
#201 = ORIENTED_EDGE ( 'NONE', *, *, #129, .T. ) ;
#202 = DATE_AND_TIME ( #50, #114 ) ;
#203 = LINE ( 'NONE', #249, #308 ) ;
#204 = PERSON_AND_ORGANIZATION_ROLE ( 'creator' ) ;
#205 = DIRECTION ( 'NONE',  ( -0.000000000000000000, -0.000000000000000000, -1.000000000000000000 ) ) ;
#206 = EDGE_CURVE ( 'NONE', #16, #100, #32, .T. ) ;
#207 = DIRECTION ( 'NONE',  ( 0.000000000000000000, 1.000000000000000000, 0.000000000000000000 ) ) ;
#208 = CC_DESIGN_PERSON_AND_ORGANIZATION_ASSIGNMENT ( #102, #179, ( #163 ) ) ;
#209 = CARTESIAN_POINT ( 'NONE',  ( -6.349999999999999645, -6.350000000000000533, -6.349999999999999645 ) ) ;
#210 = AXIS2_PLACEMENT_3D ( 'NONE', #96, #61, #164 ) ;
#211 = CARTESIAN_POINT ( 'NONE',  ( 6.349999999999999645, -6.350000000000000533, 6.349999999999999645 ) ) ;
#212 = EDGE_CURVE ( 'NONE', #65, #16, #42, .T. ) ;
#213 = DIRECTION ( 'NONE',  ( -2.220446049250312588E-16, 1.000000000000000000, 0.000000000000000000 ) ) ;
#214 = VECTOR ( 'NONE', #260, 1000.000000000000000 ) ;
#215 = ADVANCED_FACE ( 'NONE', ( #138 ), #36, .F. ) ;
#216 = CARTESIAN_POINT ( 'NONE',  ( -6.349999999999998757, -6.349999999999997868, -6.349999999999999645 ) ) ;
#217 =( LENGTH_UNIT ( ) NAMED_UNIT ( * ) SI_UNIT ( .MILLI., .METRE. ) );
#218 = ADVANCED_FACE ( 'NONE', ( #169 ), #304, .F. ) ;
#219 = ORIENTED_EDGE ( 'NONE', *, *, #10, .T. ) ;
#220 = DIRECTION ( 'NONE',  ( -2.903408047666378392E-16, -1.000000000000000000, 0.000000000000000000 ) ) ;
#221 = ORIENTED_EDGE ( 'NONE', *, *, #312, .F. ) ;
#222 = COORDINATED_UNIVERSAL_TIME_OFFSET ( 8, 0, .AHEAD. ) ;
#223 = CLOSED_SHELL ( 'NONE', ( #38, #116, #157, #68, #218 ) ) ;
#224 = ORIENTED_EDGE ( 'NONE', *, *, #88, .T. ) ;
#225 = PERSON_AND_ORGANIZATION_ROLE ( 'design_supplier' ) ;
#226 = PLANE ( 'NONE',  #315 ) ;
#227 = DIRECTION ( 'NONE',  ( 1.000000000000000000, 0.000000000000000000, 0.000000000000000000 ) ) ;
#228 = CARTESIAN_POINT ( 'NONE',  ( -6.350000000000002309, 6.350000000000001421, 6.349999999999999645 ) ) ;
#229 = VECTOR ( 'NONE', #196, 1000.000000000000000 ) ;
#230 = DATE_AND_TIME ( #45, #167 ) ;
#231 = DIRECTION ( 'NONE',  ( -0.000000000000000000, -0.000000000000000000, -1.000000000000000000 ) ) ;
#232 = LINE ( 'NONE', #209, #188 ) ;
#233 = PRODUCT_RELATED_PRODUCT_CATEGORY ( 'detail', '', ( #163 ) ) ;
#234 = LINE ( 'NONE', #5, #280 ) ;
#235 = CC_DESIGN_APPROVAL ( #288, ( #107 ) ) ;
#236 = DIRECTION ( 'NONE',  ( 0.000000000000000000, 0.000000000000000000, 1.000000000000000000 ) ) ;
#237 = ORIENTED_EDGE ( 'NONE', *, *, #29, .F. ) ;
#238 = CC_DESIGN_DATE_AND_TIME_ASSIGNMENT ( #276, #174, ( #137 ) ) ;
#239 = AXIS2_PLACEMENT_3D ( 'NONE', #131, #274, #148 ) ;
#240 = DIRECTION ( 'NONE',  ( 1.000000000000000000, 0.000000000000000000, 0.000000000000000000 ) ) ;
#241 = DIRECTION ( 'NONE',  ( 1.000000000000000000, -2.903408047666378392E-16, 0.000000000000000000 ) ) ;
#242 = VECTOR ( 'NONE', #112, 1000.000000000000000 ) ;
#243 = ORIENTED_EDGE ( 'NONE', *, *, #135, .F. ) ;
#244 = CARTESIAN_POINT ( 'NONE',  ( 6.349999999999998757, 6.349999999999998757, -6.349999999999999645 ) ) ;
#245 = ORIENTED_EDGE ( 'NONE', *, *, #206, .T. ) ;
#246 = PERSON_AND_ORGANIZATION ( #86, #48 ) ;
#247 = PRODUCT_DEFINITION_FORMATION_WITH_SPECIFIED_SOURCE ( 'ANY', '', #163, .NOT_KNOWN. ) ;
#248 = CARTESIAN_POINT ( 'NONE',  ( 6.349999999999999645, -6.350000000000000533, 6.349999999999999645 ) ) ;
#249 = CARTESIAN_POINT ( 'NONE',  ( 6.349999999999998757, 6.349999999999998757, 6.349999999999999645 ) ) ;
#250 = APPROVAL_ROLE ( '' ) ;
#251 = CARTESIAN_POINT ( 'NONE',  ( 6.349999999999996980, 6.349999999999996980, 6.349999999999999645 ) ) ;
#252 = CARTESIAN_POINT ( 'NONE',  ( 6.349999999999998757, 6.349999999999998757, 6.349999999999999645 ) ) ;
#253 =( GEOMETRIC_REPRESENTATION_CONTEXT ( 3 ) GLOBAL_UNCERTAINTY_ASSIGNED_CONTEXT ( ( #189 ) ) GLOBAL_UNIT_ASSIGNED_CONTEXT ( ( #217, #76, #317 ) ) REPRESENTATION_CONTEXT ( 'NONE', 'WORKASPACE' ) );
#254 = LINE ( 'NONE', #228, #268 ) ;
#255 = FACE_OUTER_BOUND ( 'NONE', #286, .T. ) ;
#256 = MANIFOLD_SOLID_BREP ( 'Í¹Ì¨-À', #223 ) ;
#257 = DIRECTION ( 'NONE',  ( -0.000000000000000000, 0.000000000000000000, 1.000000000000000000 ) ) ;
#258 = ORIENTED_EDGE ( 'NONE', *, *, #98, .F. ) ;
#259 = ADVANCED_FACE ( 'NONE', ( #290 ), #144, .T. ) ;
#260 = DIRECTION ( 'NONE',  ( -2.220446049250312588E-16, 1.000000000000000000, 0.000000000000000000 ) ) ;
#261 = LOCAL_TIME ( 10, 0, 47.00000000000000000, #72 ) ;
#262 = CC_DESIGN_PERSON_AND_ORGANIZATION_ASSIGNMENT ( #293, #225, ( #247 ) ) ;
#263 = MANIFOLD_SOLID_BREP ( '¾µÏ', #150 ) ;
#264 = DIRECTION ( 'NONE',  ( 0.000000000000000000, 0.000000000000000000, -1.000000000000000000 ) ) ;
#265 = DESIGN_CONTEXT ( 'detailed design', #298, 'design' ) ;
#266 = ORIENTED_EDGE ( 'NONE', *, *, #113, .T. ) ;
#267 = CARTESIAN_POINT ( 'NONE',  ( 6.349999999999998757, 6.349999999999998757, 6.349999999999999645 ) ) ;
#268 = VECTOR ( 'NONE', #1, 1000.000000000000000 ) ;
#269 = EDGE_LOOP ( 'NONE', ( #12, #309, #245 ) ) ;
#270 = CARTESIAN_POINT ( 'NONE',  ( 6.349999999999996980, 6.349999999999996980, -6.349999999999999645 ) ) ;
#271 = PERSON_AND_ORGANIZATION ( #86, #48 ) ;
#272 = CC_DESIGN_SECURITY_CLASSIFICATION ( #107, ( #247 ) ) ;
#273 = ORIENTED_EDGE ( 'NONE', *, *, #312, .T. ) ;
#274 = DIRECTION ( 'NONE',  ( 0.000000000000000000, 0.000000000000000000, 1.000000000000000000 ) ) ;
#275 = CARTESIAN_POINT ( 'NONE',  ( 6.349999999999996980, 6.349999999999996980, 6.349999999999999645 ) ) ;
#276 = DATE_AND_TIME ( #153, #261 ) ;
#277 = CARTESIAN_POINT ( 'NONE',  ( -6.349999999999999645, -6.350000000000000533, 6.349999999999999645 ) ) ;
#278 = CC_DESIGN_PERSON_AND_ORGANIZATION_ASSIGNMENT ( #52, #126, ( #247 ) ) ;
#279 = DIRECTION ( 'NONE',  ( 0.7071067811865474617, 0.7071067811865474617, 0.000000000000000000 ) ) ;
#280 = VECTOR ( 'NONE', #115, 1000.000000000000114 ) ;
#281 = CARTESIAN_POINT ( 'NONE',  ( 6.349999999999998757, 6.349999999999998757, 6.349999999999999645 ) ) ;
#282 = DIRECTION ( 'NONE',  ( -0.7071067811865475727, 0.7071067811865475727, 0.000000000000000000 ) ) ;
#283 = APPROVAL ( #151, 'UNSPECIFIED' ) ;
#284 = COORDINATED_UNIVERSAL_TIME_OFFSET ( 8, 0, .AHEAD. ) ;
#285 = LINE ( 'NONE', #58, #41 ) ;
#286 = EDGE_LOOP ( 'NONE', ( #201, #145, #176, #73 ) ) ;
#287 = VECTOR ( 'NONE', #231, 1000.000000000000000 ) ;
#288 = APPROVAL ( #186, 'UNSPECIFIED' ) ;
#289 = LOCAL_TIME ( 10, 0, 47.00000000000000000, #222 ) ;
#290 = FACE_OUTER_BOUND ( 'NONE', #122, .T. ) ;
#291 = ORIENTED_EDGE ( 'NONE', *, *, #181, .T. ) ;
#292 = EDGE_CURVE ( 'NONE', #120, #15, #87, .T. ) ;
#293 = PERSON_AND_ORGANIZATION ( #86, #48 ) ;
#294 = AXIS2_PLACEMENT_3D ( 'NONE', #321, #207, #184 ) ;
#295 = EDGE_LOOP ( 'NONE', ( #75, #258, #224, #97 ) ) ;
#296 = COORDINATED_UNIVERSAL_TIME_OFFSET ( 8, 0, .AHEAD. ) ;
#297 = ORIENTED_EDGE ( 'NONE', *, *, #206, .F. ) ;
#298 = APPLICATION_CONTEXT ( 'configuration controlled 3d designs of mechanical parts and assemblies' ) ;
#299 = ORIENTED_EDGE ( 'NONE', *, *, #181, .F. ) ;
#300 = PERSON_AND_ORGANIZATION ( #86, #48 ) ;
#301 = CARTESIAN_POINT ( 'NONE',  ( 6.349999999999996980, 6.349999999999996980, -6.349999999999999645 ) ) ;
#302 = PLANE ( 'NONE',  #6 ) ;
#303 = APPROVAL_PERSON_ORGANIZATION ( #271, #78, #250 ) ;
#304 = PLANE ( 'NONE',  #66 ) ;
#305 = CARTESIAN_POINT ( 'NONE',  ( -6.349999999999998757, -6.349999999999997868, -6.349999999999999645 ) ) ;
#306 = VECTOR ( 'NONE', #159, 1000.000000000000000 ) ;
#307 = ORIENTED_EDGE ( 'NONE', *, *, #113, .F. ) ;
#308 = VECTOR ( 'NONE', #83, 1000.000000000000114 ) ;
#309 = ORIENTED_EDGE ( 'NONE', *, *, #212, .T. ) ;
#310 = CARTESIAN_POINT ( 'NONE',  ( 0.000000000000000000, 0.000000000000000000, 6.349999999999999645 ) ) ;
#311 = ORIENTED_EDGE ( 'NONE', *, *, #123, .T. ) ;
#312 = EDGE_CURVE ( 'NONE', #109, #117, #190, .T. ) ;
#313 = CARTESIAN_POINT ( 'NONE',  ( 6.349999999999996980, 6.349999999999996980, 6.349999999999999645 ) ) ;
#314 = ORIENTED_EDGE ( 'NONE', *, *, #135, .T. ) ;
#315 = AXIS2_PLACEMENT_3D ( 'NONE', #318, #282, #152 ) ;
#316 = ORIENTED_EDGE ( 'NONE', *, *, #31, .F. ) ;
#317 =( NAMED_UNIT ( * ) SI_UNIT ( $, .STERADIAN. ) SOLID_ANGLE_UNIT ( ) );
#318 = CARTESIAN_POINT ( 'NONE',  ( 6.349999999999996980, 6.349999999999996980, 6.349999999999999645 ) ) ;
#319 = COORDINATED_UNIVERSAL_TIME_OFFSET ( 8, 0, .AHEAD. ) ;
#320 = VECTOR ( 'NONE', #205, 1000.000000000000000 ) ;
#321 = CARTESIAN_POINT ( 'NONE',  ( -6.349999999999999645, -6.350000000000000533, 6.349999999999999645 ) ) ;
ENDSEC;
END-ISO-10303-21;
